  0
SECTION
  2
HEADER
  9
$ACADVER
  1
AC1015
  9
$ACADMAINTVER
 70
     6
  9
$DWGCODEPAGE
  3
ANSI_1254
  9
$INSBASE
 10
0.0
 20
0.0
 30
0.0
  9
$EXTMIN
 10
0.0
 20
0.0
 30
0.0
  9
$EXTMAX
 10
279.4
 20
215.9
 30
0.0
  9
$LIMMIN
 10
0.0
 20
0.0
  9
$LIMMAX
 10
279.4
 20
215.9
  9
$ORTHOMODE
 70
     0
  9
$REGENMODE
 70
     1
  9
$FILLMODE
 70
     1
  9
$QTEXTMODE
 70
     0
  9
$MIRRTEXT
 70
     1
  9
$LTSCALE
 40
1.0
  9
$ATTMODE
 70
     1
  9
$TEXTSIZE
 40
3.5
  9
$TRACEWID
 40
1.0
  9
$TEXTSTYLE
  7
Standard
  9
$CLAYER
  8
0
  9
$CELTYPE
  6
ByLayer
  9
$CECOLOR
 62
   256
  9
$CELTSCALE
 40
1.0
  9
$DISPSILH
 70
     0
  9
$DIMSCALE
 40
1.0
  9
$DIMASZ
 40
3.5
  9
$DIMEXO
 40
1.0
  9
$DIMDLI
 40
3.75
  9
$DIMRND
 40
0.0
  9
$DIMDLE
 40
0.0
  9
$DIMEXE
 40
1.0
  9
$DIMTP
 40
0.0
  9
$DIMTM
 40
0.0
  9
$DIMTXT
 40
3.5
  9
$DIMCEN
 40
2.5
  9
$DIMTSZ
 40
0.0
  9
$DIMTOL
 70
     0
  9
$DIMLIM
 70
     0
  9
$DIMTIH
 70
     1
  9
$DIMTOH
 70
     1
  9
$DIMSE1
 70
     0
  9
$DIMSE2
 70
     0
  9
$DIMTAD
 70
     1
  9
$DIMZIN
 70
     0
  9
$DIMBLK
  1

  9
$DIMASO
 70
     1
  9
$DIMSHO
 70
     1
  9
$DIMPOST
  1

  9
$DIMAPOST
  1

  9
$DIMALT
 70
     0
  9
$DIMALTD
 70
     3
  9
$DIMALTF
 40
0.0393700787
  9
$DIMLFAC
 40
1.0
  9
$DIMTOFL
 70
     1
  9
$DIMTVP
 40
0.0
  9
$DIMTIX
 70
     0
  9
$DIMSOXD
 70
     0
  9
$DIMSAH
 70
     0
  9
$DIMBLK1
  1

  9
$DIMBLK2
  1

  9
$DIMSTYLE
  2
ISO-25
  9
$DIMCLRD
 70
     0
  9
$DIMCLRE
 70
     0
  9
$DIMCLRT
 70
     0
  9
$DIMTFAC
 40
1.0
  9
$DIMGAP
 40
1.524
  9
$DIMJUST
 70
     0
  9
$DIMSD1
 70
     0
  9
$DIMSD2
 70
     0
  9
$DIMTOLJ
 70
     0
  9
$DIMTZIN
 70
     0
  9
$DIMALTZ
 70
     0
  9
$DIMALTTZ
 70
     0
  9
$DIMUPT
 70
     0
  9
$DIMDEC
 70
     2
  9
$DIMTDEC
 70
     2
  9
$DIMALTU
 70
     2
  9
$DIMALTTD
 70
     3
  9
$DIMTXSTY
  7
Standard
  9
$DIMAUNIT
 70
     0
  9
$DIMADEC
 70
     2
  9
$DIMALTRND
 40
0.0
  9
$DIMAZIN
 70
     0
  9
$DIMDSEP
 70
    44
  9
$DIMATFIT
 70
     3
  9
$DIMFRAC
 70
     0
  9
$DIMLDRBLK
  1

  9
$DIMLUNIT
 70
     2
  9
$DIMLWD
 70
    -2
  9
$DIMLWE
 70
    -2
  9
$DIMTMOVE
 70
     0
  9
$LUNITS
 70
     2
  9
$LUPREC
 70
     2
  9
$SKETCHINC
 40
1.0
  9
$FILLETRAD
 40
10.0
  9
$AUNITS
 70
     0
  9
$AUPREC
 70
     2
  9
$MENU
  1
.
  9
$ELEVATION
 40
0.0
  9
$PELEVATION
 40
0.0
  9
$THICKNESS
 40
0.0
  9
$LIMCHECK
 70
     0
  9
$CHAMFERA
 40
0.0
  9
$CHAMFERB
 40
0.0
  9
$CHAMFERC
 40
0.0
  9
$CHAMFERD
 40
0.0
  9
$SKPOLY
 70
     0
  9
$TDCREATE
 40
2458985.690771122
  9
$TDUCREATE
 40
2458985.565771122
  9
$TDUPDATE
 40
2458985.690771481
  9
$TDUUPDATE
 40
2458985.565771481
  9
$TDINDWG
 40
0.0000000116
  9
$TDUSRTIMER
 40
0.0000000116
  9
$USRTIMER
 70
     1
  9
$ANGBASE
 50
0.0
  9
$ANGDIR
 70
     0
  9
$PDMODE
 70
     0
  9
$PDSIZE
 40
-1.0
  9
$PLINEWID
 40
0.0
  9
$SPLFRAME
 70
     0
  9
$SPLINETYPE
 70
     6
  9
$SPLINESEGS
 70
     8
  9
$HANDSEED
  5
CB
  9
$SURFTAB1
 70
     6
  9
$SURFTAB2
 70
     6
  9
$SURFTYPE
 70
     6
  9
$SURFU
 70
     6
  9
$SURFV
 70
     6
  9
$UCSBASE
  2

  9
$UCSNAME
  2

  9
$UCSORG
 10
0.0
 20
0.0
 30
0.0
  9
$UCSXDIR
 10
1.0
 20
0.0
 30
0.0
  9
$UCSYDIR
 10
0.0
 20
1.0
 30
0.0
  9
$UCSORTHOREF
  2

  9
$UCSORTHOVIEW
 70
     0
  9
$UCSORGTOP
 10
0.0
 20
0.0
 30
0.0
  9
$UCSORGBOTTOM
 10
0.0
 20
0.0
 30
0.0
  9
$UCSORGLEFT
 10
0.0
 20
0.0
 30
0.0
  9
$UCSORGRIGHT
 10
0.0
 20
0.0
 30
0.0
  9
$UCSORGFRONT
 10
0.0
 20
0.0
 30
0.0
  9
$UCSORGBACK
 10
0.0
 20
0.0
 30
0.0
  9
$PUCSBASE
  2

  9
$PUCSNAME
  2

  9
$PUCSORG
 10
0.0
 20
0.0
 30
0.0
  9
$PUCSXDIR
 10
1.0
 20
0.0
 30
0.0
  9
$PUCSYDIR
 10
0.0
 20
1.0
 30
0.0
  9
$PUCSORTHOREF
  2

  9
$PUCSORTHOVIEW
 70
     0
  9
$PUCSORGTOP
 10
0.0
 20
0.0
 30
0.0
  9
$PUCSORGBOTTOM
 10
0.0
 20
0.0
 30
0.0
  9
$PUCSORGLEFT
 10
0.0
 20
0.0
 30
0.0
  9
$PUCSORGRIGHT
 10
0.0
 20
0.0
 30
0.0
  9
$PUCSORGFRONT
 10
0.0
 20
0.0
 30
0.0
  9
$PUCSORGBACK
 10
0.0
 20
0.0
 30
0.0
  9
$USERI1
 70
     0
  9
$USERI2
 70
     0
  9
$USERI3
 70
     0
  9
$USERI4
 70
     0
  9
$USERI5
 70
     0
  9
$USERR1
 40
0.0
  9
$USERR2
 40
0.0
  9
$USERR3
 40
0.0
  9
$USERR4
 40
0.0
  9
$USERR5
 40
0.0
  9
$WORLDVIEW
 70
     1
  9
$SHADEDGE
 70
     3
  9
$SHADEDIF
 70
    70
  9
$TILEMODE
 70
     1
  9
$MAXACTVP
 70
    64
  9
$PINSBASE
 10
0.0
 20
0.0
 30
0.0
  9
$PLIMCHECK
 70
     0
  9
$PEXTMIN
 10
1.0000000000E+20
 20
1.0000000000E+20
 30
1.0000000000E+20
  9
$PEXTMAX
 10
-1.0000000000E+20
 20
-1.0000000000E+20
 30
-1.0000000000E+20
  9
$PLIMMIN
 10
0.0
 20
0.0
  9
$PLIMMAX
 10
420.0
 20
297.0
  9
$UNITMODE
 70
     0
  9
$VISRETAIN
 70
     1
  9
$PLINEGEN
 70
     0
  9
$PSLTSCALE
 70
     1
  9
$TREEDEPTH
 70
  3020
  9
$CMLSTYLE
  2
Standard
  9
$CMLJUST
 70
     0
  9
$CMLSCALE
 40
20.0
  9
$PROXYGRAPHICS
 70
     1
  9
$MEASUREMENT
 70
     1
  9
$CELWEIGHT
370
    -1
  9
$ENDCAPS
280
     0
  9
$JOINSTYLE
280
     0
  9
$LWDISPLAY
290
     1
  9
$INSUNITS
 70
     4
  9
$HYPERLINKBASE
  1

  9
$STYLESHEET
  1

  9
$XEDIT
290
     1
  9
$CEPSNTYPE
380
     0
  9
$PSTYLEMODE
290
     1
  9
$FINGERPRINTGUID
  2
{8302b5e6-3196-4020-aee5-725e734e5de3}
  9
$VERSIONGUID
  2
{FAEB1C32-E019-11D5-929B-00C0DF256EC4}
  9
$EXTNAMES
290
     1
  9
$PSVPSCALE
 40
0.0
  9
$OLESTARTUP
290
     0
  0
ENDSEC
  0
SECTION
  2
CLASSES
  0
CLASS
  1
ACDBDICTIONARYWDFLT
  2
AcDbDictionaryWithDefault
  3
ObjectDBX Classes
 90
        0
280
     0
281
     0
  0
CLASS
  1
VISUALSTYLE
  2
AcDbVisualStyle
  3
ObjectDBX Classes
 90
     4095
280
     0
281
     0
  0
CLASS
  1
MATERIAL
  2
AcDbMaterial
  3
ObjectDBX Classes
 90
     1153
280
     0
281
     0
  0
CLASS
  1
SCALE
  2
AcDbScale
  3
ObjectDBX Classes
 90
     1153
280
     0
281
     0
  0
CLASS
  1
TABLESTYLE
  2
AcDbTableStyle
  3
ObjectDBX Classes
 90
     4095
280
     0
281
     0
  0
CLASS
  1
MLEADERSTYLE
  2
AcDbMLeaderStyle
  3
ACDB_MLEADERSTYLE_CLASS
 90
     4095
280
     0
281
     0
  0
CLASS
  1
SUN
  2
AcDbSun
  3
SCENEOE
 90
     1153
280
     0
281
     0
  0
CLASS
  1
ACDBPLACEHOLDER
  2
AcDbPlaceHolder
  3
ObjectDBX Classes
 90
        0
280
     0
281
     0
  0
CLASS
  1
LAYOUT
  2
AcDbLayout
  3
ObjectDBX Classes
 90
        0
280
     0
281
     0
  0
ENDSEC
  0
SECTION
  2
TABLES
  0
TABLE
  2
VPORT
  5
8
330
0
100
AcDbSymbolTable
 70
     1
  0
VPORT
  5
29
330
8
100
AcDbSymbolTableRecord
100
AcDbViewportTableRecord
  2
*Active
 70
     0
 10
0.0
 20
0.0
 11
1.0
 21
1.0
 12
139.7
 22
107.95
 13
0.0
 23
0.0
 14
10.0
 24
10.0
 15
10.0
 25
10.0
 16
0.0
 26
0.0
 36
1.0
 17
0.0
 27
0.0
 37
0.0
 40
215.9
 41
1.2941176471
 42
50.0
 43
0.0
 44
0.0
 50
0.0
 51
0.0
 71
     0
 72
  2000
 73
     1
 74
     3
 75
     0
 76
     0
 77
     0
 78
     0
281
     0
 65
     1
110
0.0
120
0.0
130
0.0
111
1.0
121
0.0
131
0.0
112
0.0
122
1.0
132
0.0
 79
     0
146
0.0
  0
ENDTAB
  0
TABLE
  2
LTYPE
  5
5
330
0
100
AcDbSymbolTable
 70
     6
  0
LTYPE
  5
14
330
5
100
AcDbSymbolTableRecord
100
AcDbLinetypeTableRecord
  2
ByBlock
 70
     0
  3

 72
    65
 73
     0
 40
0.0
  0
LTYPE
  5
15
330
5
100
AcDbSymbolTableRecord
100
AcDbLinetypeTableRecord
  2
ByLayer
 70
     0
  3

 72
    65
 73
     0
 40
0.0
  0
LTYPE
  5
16
330
5
100
AcDbSymbolTableRecord
100
AcDbLinetypeTableRecord
  2
Continuous
 70
     0
  3
Solid line
 72
    65
 73
     0
 40
0.0
  0
LTYPE
  5
6E
330
5
100
AcDbSymbolTableRecord
100
AcDbLinetypeTableRecord
  2
HIDDEN
 70
     0
  3
Hidden __ __ __ __ __ __ __ __ __ __ __ __ __ __
 72
    65
 73
     2
 40
1.905
 49
1.27
 74
     0
 49
-0.635
 74
     0
  0
LTYPE
  5
6F
330
5
100
AcDbSymbolTableRecord
100
AcDbLinetypeTableRecord
  2
PHANTOM
 70
     0
  3
Phantom ______  __  __  ______  __  __  ______
 72
    65
 73
     6
 40
12.7
 49
6.35
 74
     0
 49
-1.27
 74
     0
 49
1.27
 74
     0
 49
-1.27
 74
     0
 49
1.27
 74
     0
 49
-1.27
 74
     0
  0
LTYPE
  5
70
330
5
100
AcDbSymbolTableRecord
100
AcDbLinetypeTableRecord
  2
CENTER
 70
     0
  3
Center ____ _ ____ _ ____ _ ____ _ ____ _ ____
 72
    65
 73
     4
 40
10.16
 49
6.35
 74
     0
 49
-1.27
 74
     0
 49
1.27
 74
     0
 49
-1.27
 74
     0
  0
LTYPE
  5
71
330
5
100
AcDbSymbolTableRecord
100
AcDbLinetypeTableRecord
  2
CENTERX2
 70
     0
  3
Center (2x) ________  __  ________  __  _____
 72
    65
 73
     4
 40
20.32
 49
12.7
 74
     0
 49
-2.54
 74
     0
 49
2.54
 74
     0
 49
-2.54
 74
     0
  0
LTYPE
  5
72
330
5
100
AcDbSymbolTableRecord
100
AcDbLinetypeTableRecord
  2
DOT2
 70
     0
  3
Dot (.5x) ........................................
 72
    65
 73
     2
 40
0.635
 49
0.0
 74
     0
 49
-0.635
 74
     0
  0
ENDTAB
  0
TABLE
  2
LAYER
  5
2
330
0
100
AcDbSymbolTable
 70
    17
  0
LAYER
  5
10
330
2
100
AcDbSymbolTableRecord
100
AcDbLayerTableRecord
  2
0
 70
     0
 62
     7
  6
Continuous
370
    -3
390
F
  0
LAYER
  5
73
330
2
100
AcDbSymbolTableRecord
100
AcDbLayerTableRecord
  2
FORMAT
 70
     0
 62
     7
  6
Continuous
370
    -3
390
F
  0
LAYER
  5
74
330
2
100
AcDbSymbolTableRecord
100
AcDbLayerTableRecord
  2
YARDIMCI_GEOMETRI
 70
     0
 62
    -6
  6
Continuous
290
     0
370
    -3
390
F
  0
LAYER
  5
75
330
2
100
AcDbSymbolTableRecord
100
AcDbLayerTableRecord
  2
SAYFA_CERCEVESI
 70
     0
 62
     7
  6
Continuous
370
    25
390
F
  0
LAYER
  5
76
330
2
100
AcDbSymbolTableRecord
100
AcDbLayerTableRecord
  2
ANTET
 70
     0
 62
     7
  6
Continuous
370
    -3
390
F
  0
LAYER
  5
77
330
2
100
AcDbSymbolTableRecord
100
AcDbLayerTableRecord
  2
OLCU
 70
     0
 62
   150
  6
Continuous
370
    -3
390
F
  0
LAYER
  5
78
330
2
100
AcDbSymbolTableRecord
100
AcDbLayerTableRecord
  2
METIN
 70
     0
 62
    96
  6
Continuous
370
    -3
390
F
  0
LAYER
  5
79
330
2
100
AcDbSymbolTableRecord
100
AcDbLayerTableRecord
  2
BALON
 70
     0
 62
     5
  6
Continuous
370
    -3
390
F
  0
LAYER
  5
7A
330
2
100
AcDbSymbolTableRecord
100
AcDbLayerTableRecord
  2
VURGU
 70
     0
 62
     7
  6
Continuous
370
    -3
390
F
  0
LAYER
  5
7B
330
2
100
AcDbSymbolTableRecord
100
AcDbLayerTableRecord
  2
SILIK
 70
     0
 62
     7
  6
Continuous
370
    -3
390
F
  0
LAYER
  5
7C
330
2
100
AcDbSymbolTableRecord
100
AcDbLayerTableRecord
  2
MODEL
 70
     0
 62
     7
  6
Continuous
370
    -3
390
F
  0
LAYER
  5
7D
330
2
100
AcDbSymbolTableRecord
100
AcDbLayerTableRecord
  2
DETAYLANDıRMA
 70
     0
 62
   190
  6
Continuous
370
    -3
390
F
  0
LAYER
  5
7E
330
2
100
AcDbSymbolTableRecord
100
AcDbLayerTableRecord
  2
TOLERANS
 70
     0
 62
   230
  6
Continuous
370
    -3
390
F
  0
LAYER
  5
7F
330
2
100
AcDbSymbolTableRecord
100
AcDbLayerTableRecord
  2
MERKEZ_CIZGILERI
 70
     0
 62
    30
  6
Continuous
370
    -3
390
F
  0
LAYER
  5
80
330
2
100
AcDbSymbolTableRecord
100
AcDbLayerTableRecord
  2
KESIT-DETAY_CIZGILERI
 70
     0
 62
     7
  6
Continuous
370
    -3
390
F
  0
LAYER
  5
81
330
2
100
AcDbSymbolTableRecord
100
AcDbLayerTableRecord
  2
\U+041E\U+0421\U+0415\U+0412\U+042B\U+0415
 70
     0
 62
     7
  6
Continuous
370
    -3
390
F
  0
LAYER
  5
82
330
2
100
AcDbSymbolTableRecord
100
AcDbLayerTableRecord
  2
\U+0412\U+041E\U+0414\U+042F\U+041D\U+042B\U+0415_\U+0417\U+041D\U+0410\U+041A\U+0418
 70
     0
 62
    11
  6
Continuous
370
    -3
390
F
  0
ENDTAB
  0
TABLE
  2
STYLE
  5
3
330
0
100
AcDbSymbolTable
 70
     1
  0
STYLE
  5
11
330
3
100
AcDbSymbolTableRecord
100
AcDbTextStyleTableRecord
  2
Standard
 70
     0
 40
0.0
 41
1.0
 50
0.0
 71
     0
 42
3.5
  3
txt
  4

  0
ENDTAB
  0
TABLE
  2
VIEW
  5
6
330
0
100
AcDbSymbolTable
 70
     0
  0
ENDTAB
  0
TABLE
  2
UCS
  5
7
330
0
100
AcDbSymbolTable
 70
     0
  0
ENDTAB
  0
TABLE
  2
APPID
  5
9
330
0
100
AcDbSymbolTable
 70
     1
  0
APPID
  5
12
330
9
100
AcDbSymbolTableRecord
100
AcDbRegAppTableRecord
  2
ACAD
 70
     0
  0
ENDTAB
  0
TABLE
  2
DIMSTYLE
  5
A
330
0
100
AcDbSymbolTable
 70
     1
100
AcDbDimStyleTable
  0
DIMSTYLE
105
27
330
A
100
AcDbSymbolTableRecord
100
AcDbDimStyleTableRecord
  2
ISO-25
 70
     0
 41
2.5
 42
0.625
 43
3.75
 44
1.25
 73
     0
 74
     0
 77
     1
 78
     8
140
2.5
141
2.5
143
0.0393700787
147
0.625
171
     3
172
     1
178
     0
271
     2
272
     2
274
     3
278
    44
283
     0
284
     8
340
11
  0
ENDTAB
  0
TABLE
  2
BLOCK_RECORD
  5
1
330
0
100
AcDbSymbolTable
 70
     3
  0
BLOCK_RECORD
  5
1F
330
1
100
AcDbSymbolTableRecord
100
AcDbBlockTableRecord
  2
*Model_Space
340
22
  0
BLOCK_RECORD
  5
1B
330
1
100
AcDbSymbolTableRecord
100
AcDbBlockTableRecord
  2
*Paper_Space
340
1E
  0
BLOCK_RECORD
  5
23
330
1
100
AcDbSymbolTableRecord
100
AcDbBlockTableRecord
  2
*Paper_Space0
340
26
  0
BLOCK_RECORD
  5
88
330
1
100
AcDbSymbolTableRecord
100
AcDbBlockTableRecord
  2
SW_CENTERMARKSYMBOL_0
340
0
102
{BLKREFS
331
93
102
}
  0
BLOCK_RECORD
  5
9C
330
1
100
AcDbSymbolTableRecord
100
AcDbBlockTableRecord
  2
SW_CENTERMARKSYMBOL_1
340
0
102
{BLKREFS
331
A7
102
}
  0
ENDTAB
  0
ENDSEC
  0
SECTION
  2
BLOCKS
  0
BLOCK
  5
20
330
1F
100
AcDbEntity
  8
0
100
AcDbBlockBegin
  2
*Model_Space
 70
     0
 10
0.0
 20
0.0
 30
0.0
  3
*Model_Space
  1

  0
ENDBLK
  5
21
330
1F
100
AcDbEntity
  8
0
100
AcDbBlockEnd
  0
BLOCK
  5
1C
330
1B
100
AcDbEntity
 67
     1
  8
0
100
AcDbBlockBegin
  2
*Paper_Space
 70
     0
 10
0.0
 20
0.0
 30
0.0
  3
*Paper_Space
  1

  0
ENDBLK
  5
1D
330
1B
100
AcDbEntity
 67
     1
  8
0
100
AcDbBlockEnd
  0
BLOCK
  5
24
330
23
100
AcDbEntity
  8
0
100
AcDbBlockBegin
  2
*Paper_Space0
 70
     0
 10
0.0
 20
0.0
 30
0.0
  3
*Paper_Space0
  1

  0
ENDBLK
  5
25
330
23
100
AcDbEntity
  8
0
100
AcDbBlockEnd
  0
BLOCK
  5
89
330
88
100
AcDbEntity
  8
0
100
AcDbBlockBegin
  2
SW_CENTERMARKSYMBOL_0
 70
     0
 10
0.0
 20
0.0
 30
0.0
  3
SW_CENTERMARKSYMBOL_0
  1

  0
LINE
  5
8B
330
88
100
AcDbEntity
  8
FORMAT
 62
     0
100
AcDbLine
 10
0.0
 20
0.0
 30
0.0
 11
2.5
 21
0.0
 31
0.0
  0
LINE
  5
8C
330
88
100
AcDbEntity
  8
FORMAT
 62
     0
100
AcDbLine
 10
0.0
 20
0.0
 30
0.0
 11
0.0
 21
2.5
 31
0.0
  0
LINE
  5
8D
330
88
100
AcDbEntity
  8
FORMAT
 62
     0
100
AcDbLine
 10
0.0
 20
0.0
 30
0.0
 11
-2.5
 21
0.0
 31
0.0
  0
LINE
  5
8E
330
88
100
AcDbEntity
  8
FORMAT
 62
     0
100
AcDbLine
 10
0.0
 20
0.0
 30
0.0
 11
0.0
 21
-2.5
 31
0.0
  0
LINE
  5
8F
330
88
100
AcDbEntity
  8
FORMAT
 62
     0
100
AcDbLine
 10
5.0
 20
0.0
 30
0.0
 11
82.5
 21
0.0
 31
0.0
  0
LINE
  5
90
330
88
100
AcDbEntity
  8
FORMAT
 62
     0
100
AcDbLine
 10
0.0
 20
5.0
 30
0.0
 11
0.0
 21
82.5
 31
0.0
  0
LINE
  5
91
330
88
100
AcDbEntity
  8
FORMAT
 62
     0
100
AcDbLine
 10
-5.0
 20
0.0
 30
0.0
 11
-82.5
 21
0.0
 31
0.0
  0
LINE
  5
92
330
88
100
AcDbEntity
  8
FORMAT
 62
     0
100
AcDbLine
 10
0.0
 20
-5.0
 30
0.0
 11
0.0
 21
-82.5
 31
0.0
  0
ENDBLK
  5
8A
330
88
100
AcDbEntity
  8
0
100
AcDbBlockEnd
  0
BLOCK
  5
9D
330
9C
100
AcDbEntity
  8
0
100
AcDbBlockBegin
  2
SW_CENTERMARKSYMBOL_1
 70
     0
 10
0.0
 20
0.0
 30
0.0
  3
SW_CENTERMARKSYMBOL_1
  1

  0
LINE
  5
9F
330
9C
100
AcDbEntity
  8
FORMAT
 62
     0
100
AcDbLine
 10
0.0
 20
0.0
 30
0.0
 11
0.0
 21
2.5
 31
0.0
  0
LINE
  5
A0
330
9C
100
AcDbEntity
  8
FORMAT
 62
     0
100
AcDbLine
 10
0.0
 20
0.0
 30
0.0
 11
-2.5
 21
0.0
 31
0.0
  0
LINE
  5
A1
330
9C
100
AcDbEntity
  8
FORMAT
 62
     0
100
AcDbLine
 10
0.0
 20
0.0
 30
0.0
 11
0.0
 21
-2.5
 31
0.0
  0
LINE
  5
A2
330
9C
100
AcDbEntity
  8
FORMAT
 62
     0
100
AcDbLine
 10
0.0
 20
0.0
 30
0.0
 11
2.5
 21
0.0
 31
0.0
  0
LINE
  5
A3
330
9C
100
AcDbEntity
  8
FORMAT
 62
     0
100
AcDbLine
 10
0.0
 20
5.0
 30
0.0
 11
0.0
 21
34.0
 31
0.0
  0
LINE
  5
A4
330
9C
100
AcDbEntity
  8
FORMAT
 62
     0
100
AcDbLine
 10
-5.0
 20
0.0
 30
0.0
 11
-34.0
 21
0.0
 31
0.0
  0
LINE
  5
A5
330
9C
100
AcDbEntity
  8
FORMAT
 62
     0
100
AcDbLine
 10
0.0
 20
-5.0
 30
0.0
 11
0.0
 21
-34.0
 31
0.0
  0
LINE
  5
A6
330
9C
100
AcDbEntity
  8
FORMAT
 62
     0
100
AcDbLine
 10
5.0
 20
0.0
 30
0.0
 11
34.0
 21
0.0
 31
0.0
  0
ENDBLK
  5
9E
330
9C
100
AcDbEntity
  8
0
100
AcDbBlockEnd
  0
ENDSEC
  0
SECTION
  2
ENTITIES
  0
LINE
  5
83
330
1F
100
AcDbEntity
  8
0
  6
Continuous
 62
     7
370
    25
100
AcDbLine
 10
108.7388270586
 20
79.5970585632
 30
0.0
 11
108.7388270586
 21
-21.8167352986
 31
0.0
  0
LINE
  5
84
330
1F
100
AcDbEntity
  8
0
  6
Continuous
 62
     7
370
    25
100
AcDbLine
 10
171.7388280719
 20
-21.8167352986
 30
0.0
 11
171.7388280719
 21
79.6044569898
 31
0.0
  0
CIRCLE
  5
85
330
1F
100
AcDbEntity
  8
0
  6
Continuous
 62
     7
370
    25
100
AcDbCircle
 10
140.2388275653
 20
153.1832617212
 30
0.0
 40
70.50000000000001
  0
CIRCLE
  5
86
330
1F
100
AcDbEntity
  8
0
  6
Continuous
 62
     7
370
    25
100
AcDbCircle
 10
140.2388275653
 20
153.1832617212
 30
0.0
 40
79.99999999999999
  0
LINE
  5
87
330
1F
100
AcDbEntity
  8
0
  6
Continuous
 62
     7
370
    25
100
AcDbLine
 10
171.7388280719
 20
-21.8167352986
 30
0.0
 11
108.7388270586
 21
-21.8167352986
 31
0.0
  0
INSERT
  5
93
330
1F
100
AcDbEntity
  8
FORMAT
 62
     7
100
AcDbBlockReference
  2
SW_CENTERMARKSYMBOL_0
 10
140.2388275653
 20
153.1832617212
 30
0.0
  0
LINE
  5
94
330
1F
100
AcDbEntity
  8
0
  6
Continuous
 62
     7
370
    25
100
AcDbLine
 10
220.2388257771
 20
304.8877007172
 30
0.0
 11
220.2388257771
 21
721.8876964257
 31
0.0
  0
LINE
  5
95
330
1F
100
AcDbEntity
  8
0
  6
Continuous
 62
     7
370
    25
100
AcDbLine
 10
60.2388293534
 20
721.8876964257
 30
0.0
 11
60.2388293534
 21
304.8877007172
 31
0.0
  0
CIRCLE
  5
96
330
1F
100
AcDbEntity
  8
0
  6
Continuous
 62
     7
370
    25
100
AcDbCircle
 10
140.2388275653
 20
513.3876985715
 30
0.0
 40
27.70000000000005
  0
CIRCLE
  5
97
330
1F
100
AcDbEntity
  8
0
  6
Continuous
 62
     7
370
    25
100
AcDbCircle
 10
140.2388275653
 20
513.3876985715
 30
0.0
 40
31.50000000000006
  0
LINE
  5
98
330
1F
100
AcDbEntity
  8
0
  6
Continuous
 62
     7
370
    25
100
AcDbLine
 10
140.2388275653
 20
721.8876964257
 30
0.0
 11
220.2388257771
 21
721.8876964257
 31
0.0
  0
LINE
  5
99
330
1F
100
AcDbEntity
  8
0
  6
Continuous
 62
     7
370
    25
100
AcDbLine
 10
60.2388293534
 20
721.8876964257
 30
0.0
 11
140.2388275653
 21
721.8876964257
 31
0.0
  0
LINE
  5
9A
330
1F
100
AcDbEntity
  8
0
  6
Continuous
 62
     7
370
    25
100
AcDbLine
 10
140.2388275653
 20
304.8877007172
 30
0.0
 11
220.2388257771
 21
304.8877007172
 31
0.0
  0
LINE
  5
9B
330
1F
100
AcDbEntity
  8
0
  6
Continuous
 62
     7
370
    25
100
AcDbLine
 10
60.2388293534
 20
304.8877007172
 30
0.0
 11
140.2388275653
 21
304.8877007172
 31
0.0
  0
INSERT
  5
A7
330
1F
100
AcDbEntity
  8
FORMAT
100
AcDbBlockReference
  2
SW_CENTERMARKSYMBOL_1
 10
140.2388275653
 20
513.3876985715
 30
0.0
  0
LINE
  5
A8
330
1F
100
AcDbEntity
  8
0
  6
Continuous
 62
     7
370
    25
100
AcDbLine
 10
-78.003102852
 20
233.183259933
 30
0.0
 11
-495.0030985604
 21
233.183259933
 31
0.0
  0
LINE
  5
A9
330
1F
100
AcDbEntity
  8
0
  6
Continuous
 62
     7
370
    25
100
AcDbLine
 10
-255.0474348794
 20
73.1832635093
 30
0.0
 11
-78.003102852
 21
73.1832635093
 31
0.0
  0
LINE
  5
AA
330
1F
100
AcDbEntity
  8
0
  6
Continuous
 62
     7
370
    25
100
AcDbLine
 10
-495.0030985604
 20
73.1832635093
 30
0.0
 11
-318.0031012128
 21
73.1832635093
 31
0.0
  0
LINE
  5
AB
330
1F
100
AcDbEntity
  8
0
  6
Continuous
 62
     7
370
    25
100
AcDbLine
 10
-318.0031012128
 20
73.1832635093
 30
0.0
 11
-318.0031012128
 21
-21.8167352986
 31
0.0
  0
LINE
  5
AC
330
1F
100
AcDbEntity
  8
0
  6
Continuous
 62
     7
370
    25
100
AcDbLine
 10
-255.0031001996
 20
-21.8167352986
 30
0.0
 11
-255.0031001996
 21
73.2005861092
 31
0.0
  0
LWPOLYLINE
  5
AD
330
1F
100
AcDbEntity
  8
0
  6
Continuous
 62
     7
370
    25
100
AcDbPolyline
 90
       22
 70
   128
 43
0.0
 10
-255.0474348794
 20
73.2006457138
 10
-255.3476038705
 20
73.3182829309
 10
-256.4352601151
 20
73.7362679529
 10
-258.2876420896
 20
74.4186591792
 10
-260.8370910715
 20
75.2955627132
 10
-264.0981282424
 20
76.3084765959
 10
-268.0856920163
 20
77.3746174264
 10
-272.7368659656
 20
78.3684280205
 10
-277.7125713732
 20
79.1223150182
 10
-283.1542782336
 20
79.5696478772
 10
-288.1626081038
 20
79.6271365571
 10
-293.275345521
 20
79.3346789169
 10
-297.875001965
 20
78.7717726517
 10
-302.2919222097
 20
77.9699858713
 10
-306.4196910094
 20
76.9965153623
 10
-310.1210332792
 20
75.9462442684
 10
-313.2918997984
 20
74.9183919716
 10
-315.7700429987
 20
74.0359079528
 10
-317.2278589885
 20
73.4853249479
 10
-317.9452996086
 20
73.2060026813
 10
-318.0031012128
 20
73.1832635093
 10
-318.0031012128
 20
73.1832635093
  0
LINE
  5
AE
330
1F
100
AcDbEntity
  8
0
  6
Continuous
 62
     7
370
    25
100
AcDbLine
 10
-495.0030985604
 20
73.1832635093
 30
0.0
 11
-495.0030985604
 21
233.183259933
 31
0.0
  0
LINE
  5
AF
330
1F
100
AcDbEntity
  8
0
  6
Continuous
 62
     7
370
    25
100
AcDbLine
 10
-78.003102852
 20
73.1832635093
 30
0.0
 11
-78.003102852
 21
233.183259933
 31
0.0
  0
LINE
  5
B0
330
1F
100
AcDbEntity
  8
0
  6
Continuous
 62
     7
370
    25
100
AcDbLine
 10
-255.0031001996
 20
-21.8167352986
 30
0.0
 11
-318.0031012128
 21
-21.8167352986
 31
0.0
  0
LINE
  5
B1
330
1F
100
AcDbEntity
  8
0
  6
Continuous
 62
     7
370
    25
100
AcDbLine
 10
584.7446724008
 20
73.1832635093
 30
0.0
 11
761.7446697484
 21
73.1832635093
 31
0.0
  0
LINE
  5
B2
330
1F
100
AcDbEntity
  8
0
  6
Continuous
 62
     7
370
    25
100
AcDbLine
 10
344.7446740399
 20
73.1832635093
 30
0.0
 11
521.7890060673
 21
73.1832635093
 31
0.0
  0
LINE
  5
B3
330
1F
100
AcDbEntity
  8
0
  6
Continuous
 62
     7
370
    25
100
AcDbLine
 10
761.7446697484
 20
233.183259933
 30
0.0
 11
344.7446740399
 21
233.183259933
 31
0.0
  0
LINE
  5
B4
330
1F
100
AcDbEntity
  8
0
  6
Continuous
 62
     7
370
    25
100
AcDbLine
 10
521.7446713875
 20
73.2005861092
 30
0.0
 11
521.7446713875
 21
-21.8167352986
 31
0.0
  0
LINE
  5
B5
330
1F
100
AcDbEntity
  8
0
  6
Continuous
 62
     7
370
    25
100
AcDbLine
 10
584.7446724008
 20
-21.8167352986
 30
0.0
 11
584.7446724008
 21
73.1832635093
 31
0.0
  0
SPLINE
  5
B6
330
1F
100
AcDbEntity
  8
0
  6
Continuous
 62
     7
370
    25
100
AcDbSpline
210
0.0
220
0.0
230
1.0
 70
     8
 71
     3
 72
    27
 73
    23
 74
     0
 42
0.000000001
 43
0.00000001
 40
0.0
 40
0.0
 40
0.0
 40
0.0
 40
0.0502158407219099
 40
0.1019530407905082
 40
0.1521522470159302
 40
0.20370009577006
 40
0.2560084299341967
 40
0.3097098242983228
 40
0.3641267524348864
 40
0.4202597144838416
 40
0.4721973908513378
 40
0.5258654340878048
 40
0.5744388611691161
 40
0.6243740876026385
 40
0.6740047083218357
 40
0.7248853071239142
 40
0.7781681639870759
 40
0.8329344700600019
 40
0.8870758869533657
 40
0.9429772531430228
 40
0.9939963025083492
 40
1.0
 40
1.0
 40
1.0
 40
1.0
 10
584.7446724007838
 20
73.18326350929051
 30
0.0
 10
584.6672393840072
 20
73.21391518365706
 30
0.0
 10
584.5100274085737
 20
73.2761471678689
 30
0.0
 10
583.250682656323
 20
73.7643386700146
 30
0.0
 10
581.2747430181329
 20
74.49462813770049
 30
0.0
 10
578.573473376163
 20
75.42385107164793
 30
0.0
 10
575.1592186473949
 20
76.47784957797879
 30
0.0
 10
571.0823246262757
 20
77.55344557917047
 30
0.0
 10
566.3774434539279
 20
78.53603671255513
 30
0.0
 10
561.297688463437
 20
79.26730777546362
 30
0.0
 10
555.978297896334
 20
79.65833063144937
 30
0.0
 10
550.8149833211722
 20
79.66508449000538
 30
0.0
 10
545.8020655300719
 20
79.32135037744968
 30
0.0
 10
541.1288589635479
 20
78.69978270056623
 30
0.0
 10
536.7128847831021
 20
77.848096611854
 30
0.0
 10
532.6337198814877
 20
76.84270384832936
 30
0.0
 10
528.9688161009967
 20
75.76497713683291
 30
0.0
 10
525.908396217748
 20
74.74300377976164
 30
0.0
 10
523.5533557510807
 20
73.88415574449974
 30
0.0
 10
522.1987725667731
 20
73.36251507404953
 30
0.0
 10
521.6374574915949
 20
73.14122134409226
 30
0.0
 10
521.7745700347655
 20
73.19498513843794
 30
0.0
 10
521.7890060673468
 20
73.20064571382314
 30
0.0
  0
LINE
  5
B7
330
1F
100
AcDbEntity
  8
0
  6
Continuous
 62
     7
370
    25
100
AcDbLine
 10
761.7446697484
 20
233.183259933
 30
0.0
 11
761.7446697484
 21
73.1832635093
 31
0.0
  0
LINE
  5
B8
330
1F
100
AcDbEntity
  8
0
  6
Continuous
 62
     7
370
    25
100
AcDbLine
 10
344.7446740399
 20
233.183259933
 30
0.0
 11
344.7446740399
 21
73.1832635093
 31
0.0
  0
LINE
  5
B9
330
1F
100
AcDbEntity
  8
0
  6
Continuous
 62
     7
370
    25
100
AcDbLine
 10
584.7446724008
 20
-21.8167352986
 30
0.0
 11
521.7446713875
 21
-21.8167352986
 31
0.0
  0
LINE
  5
BA
330
1F
100
AcDbEntity
  8
0
  6
Continuous
 62
     7
370
    25
100
AcDbLine
 10
60.2388293534
 20
-100.0200386306
 30
0.0
 11
60.2388293534
 21
-517.0200343391
 31
0.0
  0
LINE
  5
BB
330
1F
100
AcDbEntity
  8
0
  6
Continuous
 62
     7
370
    25
100
AcDbLine
 10
220.2388257771
 20
-517.0200343391
 30
0.0
 11
220.2388257771
 21
-100.0200386306
 31
0.0
  0
LINE
  5
BC
330
1F
100
AcDbEntity
  8
0
  6
Continuous
 62
     7
370
    25
100
AcDbLine
 10
220.2388257771
 20
-517.0200343391
 30
0.0
 11
60.2388293534
 21
-517.0200343391
 31
0.0
  0
LINE
  5
BD
330
1F
100
AcDbEntity
  8
0
  6
Continuous
 62
     7
370
    25
100
AcDbLine
 10
220.2388257771
 20
-100.0200386306
 30
0.0
 11
60.2388293534
 21
-100.0200386306
 31
0.0
  0
LINE
  5
BE
330
1F
100
AcDbEntity
  8
0
  6
Continuous
 62
     7
370
    25
100
AcDbLine
 10
745.3639603748
 20
-282.8755622566
 30
0.0
 11
450.5004356546
 21
-112.6544726934
 31
0.0
  0
LINE
  5
BF
330
1F
100
AcDbEntity
  8
0
  6
Continuous
 62
     7
370
    25
100
AcDbLine
 10
370.5069394395
 20
-251.2222865857
 30
0.0
 11
526.4354511417
 21
-341.2379003551
 31
0.0
  0
LINE
  5
C0
330
1F
100
AcDbEntity
  8
0
  6
Continuous
 62
     7
370
    25
100
AcDbLine
 10
589.4354513068
 20
-377.6070263118
 30
0.0
 11
665.3704641597
 21
-421.4433761489
 31
0.0
  0
LINE
  5
C1
330
1F
100
AcDbEntity
  8
0
  6
Continuous
 62
     7
370
    25
100
AcDbLine
 10
526.4354511417
 20
-329.7872893729
 30
0.0
 11
526.4354511417
 21
-409.9435640677
 31
0.0
  0
LINE
  5
C2
330
1F
100
AcDbEntity
  8
0
  6
Continuous
 62
     7
370
    25
100
AcDbLine
 10
589.4354486726
 20
-409.9435640677
 30
0.0
 11
589.4354486726
 21
-329.789582929
 31
0.0
  0
SPLINE
  5
C3
330
1F
100
AcDbEntity
  8
0
  6
Continuous
 62
     7
370
    25
100
AcDbSpline
210
0.0
220
0.0
230
1.0
 70
     8
 71
     3
 72
    12
 73
     8
 74
     0
 42
0.000000001
 43
0.00000001
 40
0.0
 40
0.0
 40
0.0
 40
0.0
 40
0.2009181164439255
 40
0.407923329110411
 40
0.6087748894307251
 40
0.8150224903774366
 40
1.0
 40
1.0
 40
1.0
 40
1.0
 10
535.6615859415228
 20
-319.5137599439111
 30
0.0
 10
534.5330927785086
 20
-320.2035673448791
 30
0.0
 10
532.2419171688488
 20
-321.6040808298159
 30
0.0
 10
529.6476967393144
 20
-323.7288346210564
 30
0.0
 10
527.7559577411363
 20
-325.8466503242757
 30
0.0
 10
526.6194343727896
 20
-327.8596453115888
 30
0.0
 10
526.5235545105693
 20
-329.1695090359209
 30
0.0
 10
526.4782209732853
 20
-329.7888336220124
 30
0.0
  0
SPLINE
  5
C4
330
1F
100
AcDbEntity
  8
0
  6
Continuous
 62
     7
370
    25
100
AcDbSpline
210
0.0
220
0.0
230
1.0
 70
     8
 71
     3
 72
    22
 73
    18
 74
     0
 42
0.000000001
 43
0.00000001
 40
0.0
 40
0.0
 40
0.0
 40
0.0
 40
0.0689655213206035
 40
0.1424864913256572
 40
0.214364312124271
 40
0.2886397529155372
 40
0.3555202644170467
 40
0.424500168167866
 40
0.4890691834370319
 40
0.5553267189132571
 40
0.6235524422041686
 40
0.6935317530129209
 40
0.7658588392031296
 40
0.8403589719502561
 40
0.9064969965272219
 40
0.9745260240668481
 40
1.0
 40
1.0
 40
1.0
 40
1.0
 10
589.4205484445871
 20
-329.7902512672133
 30
0.0
 10
589.3480145875645
 20
-328.5313011787474
 30
0.0
 10
589.1981557219813
 20
-325.9302423101321
 30
0.0
 10
587.8525148781985
 20
-322.163830778865
 30
0.0
 10
585.656191047922
 20
-318.6423974502109
 30
0.0
 10
582.6831872093027
 20
-315.7252912273149
 30
0.0
 10
579.0574306139107
 20
-313.4654194587272
 30
0.0
 10
575.0590337681522
 20
-311.9462065493577
 30
0.0
 10
570.673314558927
 20
-311.0728804726747
 30
0.0
 10
566.0271849150814
 20
-310.7984747758567
 30
0.0
 10
561.0781364117664
 20
-311.0854805418776
 30
0.0
 10
555.9090133456052
 20
-311.9026225839949
 30
0.0
 10
550.6288776936539
 20
-313.2061484564088
 30
0.0
 10
545.6146547052715
 20
-314.8601971231864
 30
0.0
 10
541.0179059933804
 20
-316.7390328011543
 30
0.0
 10
537.8016765377602
 20
-318.3057361233123
 30
0.0
 10
536.1197974091153
 20
-319.2551118433603
 30
0.0
 10
535.6615859415228
 20
-319.5137599439111
 30
0.0
  0
LWPOLYLINE
  5
C5
330
1F
100
AcDbEntity
  8
0
  6
Continuous
 62
     7
370
    25
100
AcDbPolyline
 90
       95
 70
   128
 43
0.0
 10
410.503687547
 20
-247.2616431303
 10
414.2820494538
 20
-244.9345661961
 10
418.0435361576
 20
-242.3261319981
 10
421.7713485172
 20
-239.4479974266
 10
425.4488362226
 20
-236.3130049473
 10
429.0595751738
 20
-232.9351622665
 10
432.5874402499
 20
-229.3295577362
 10
436.016673798
 20
-225.5122903982
 10
439.3319580727
 20
-221.5004159979
 10
442.5184889937
 20
-217.311843568
 10
445.562036731
 20
-212.9652822025
 10
448.4490010236
 20
-208.4801543682
 10
451.1664954725
 20
-203.8764803231
 10
453.7023791512
 20
-199.1748264072
 10
456.0453277282
 20
-194.3961879383
 10
458.1848756144
 20
-189.5619131698
 10
460.1114660117
 20
-184.6935892253
 10
461.8165009632
 20
-179.8129554113
 10
463.2923571575
 20
-174.9418180462
 10
464.5324438812
 20
-170.1019303132
 10
465.5312293605
 20
-165.3149055695
 10
466.2842460294
 20
-160.6021253309
 10
466.7881326768
 20
-155.9846381344
 10
467.0406397146
 20
-151.4830673325
 10
467.0406397146
 20
-147.1175164164
 10
466.7881326768
 20
-142.9074840347
 10
466.2842460294
 20
-138.8717719779
 10
465.5312293605
 20
-135.0284062792
 10
464.5324438812
 20
-131.3945547039
 10
463.2923571575
 20
-127.9864406259
 10
461.8165009632
 20
-124.8192905525
 10
460.1114660117
 20
-121.9072481907
 10
458.1848756144
 20
-119.2633181715
 10
456.0453277282
 20
-116.8993128111
 10
453.7023791512
 20
-114.8257851895
 10
451.1664954725
 20
-113.0520002475
 10
448.4490010236
 20
-111.5858785084
 10
445.562036731
 20
-110.4339686968
 10
442.5184889937
 20
-109.6014127511
 10
439.3319580727
 20
-109.0919306109
 10
436.016673798
 20
-108.9078019583
 10
432.5874402499
 20
-109.0498433987
 10
429.0595751738
 20
-109.5174251851
 10
425.4488362226
 20
-110.3084529604
 10
421.7713485172
 20
-111.4193974084
 10
418.0435361576
 20
-112.8453033733
 10
414.2820494538
 20
-114.5797892818
 10
410.503687547
 20
-116.6151161488
 10
406.7253256403
 20
-118.942193083
 10
402.9638389365
 20
-121.550627281
 10
399.2360265769
 20
-124.4287618525
 10
395.5585388714
 20
-127.5637543318
 10
391.9477999203
 20
-130.9415970126
 10
388.4199348442
 20
-134.5472015429
 10
384.9907012961
 20
-138.3644688809
 10
381.6754170213
 20
-142.3763432812
 10
378.4888861004
 20
-146.5649157111
 10
375.4453383631
 20
-150.9114770766
 10
372.5583740705
 20
-155.3966049109
 10
369.8408796216
 20
-160.000278956
 10
367.3049959429
 20
-164.7019328719
 10
364.9620473658
 20
-169.4805713408
 10
362.8224994797
 20
-174.3148461093
 10
360.8959090823
 20
-179.1831700538
 10
359.1908741309
 20
-184.0638038678
 10
357.7150179366
 20
-188.9349412329
 10
356.4749312129
 20
-193.7748289659
 10
355.4761457336
 20
-198.5618537096
 10
354.7231290646
 20
-203.2746339482
 10
354.2192424173
 20
-207.8921211447
 10
353.9667353795
 20
-212.3936919466
 10
353.9667353795
 20
-216.7592428627
 10
354.2192424173
 20
-220.9692752444
 10
354.7231290646
 20
-225.0049873012
 10
355.4761457336
 20
-228.8483529999
 10
356.4749312129
 20
-232.4822045752
 10
357.7150179366
 20
-235.8903186532
 10
359.1908741309
 20
-239.0574687266
 10
360.8959090823
 20
-241.9695110884
 10
362.8224994797
 20
-244.6134411076
 10
364.9620473658
 20
-246.977446468
 10
367.3049959429
 20
-249.0509740896
 10
369.8408796216
 20
-250.8247590316
 10
372.5583740705
 20
-252.2908807707
 10
375.4453383631
 20
-253.4427905823
 10
378.4888861004
 20
-254.275346528
 10
381.6754170213
 20
-254.7848286682
 10
384.9907012961
 20
-254.9689573208
 10
388.4199348442
 20
-254.8269158804
 10
391.9477999203
 20
-254.3593340941
 10
395.5585388714
 20
-253.5683063188
 10
399.2360265769
 20
-252.4573618707
 10
402.9638389365
 20
-251.0314559058
 10
406.7253256403
 20
-249.2969699973
 10
410.503687547
 20
-247.2616431303
  0
LWPOLYLINE
  5
C6
330
1F
100
AcDbEntity
  8
0
  6
Continuous
 62
     7
370
    25
100
AcDbPolyline
 90
       37
 70
   128
 43
0.0
 10
705.3672122673
 20
-417.4827326935
 10
709.145574174
 20
-415.1556557593
 10
712.9070608778
 20
-412.5472215613
 10
716.6348732374
 20
-409.6690869898
 10
720.3123609429
 20
-406.5340945105
 10
723.923099894
 20
-403.1562518297
 10
727.4509649701
 20
-399.5506472994
 10
730.8801985182
 20
-395.7333799614
 10
734.195482793
 20
-391.7215055611
 10
737.3820137139
 20
-387.5329331313
 10
740.4255614512
 20
-383.1863717657
 10
743.3125257438
 20
-378.7012439314
 10
746.0300201927
 20
-374.0975698863
 10
748.5659038714
 20
-369.3959159704
 10
750.9088524484
 20
-364.6172775016
 10
753.0484003346
 20
-359.783002733
 10
754.974990732
 20
-354.9146787885
 10
756.6800256834
 20
-350.0340449745
 10
758.1558818777
 20
-345.1629076095
 10
759.3959686014
 20
-340.3230198764
 10
760.3947540807
 20
-335.5359951327
 10
761.1477707497
 20
-330.8232148941
 10
761.651657397
 20
-326.2057276977
 10
761.9041644348
 20
-321.7041568957
 10
761.9041644348
 20
-317.3386059796
 10
761.651657397
 20
-313.1285735979
 10
761.1477707497
 20
-309.0928615411
 10
760.3947540807
 20
-305.2494958424
 10
759.3959686014
 20
-301.6156442671
 10
758.1558818777
 20
-298.2075301892
 10
756.6800256834
 20
-295.0403801157
 10
754.974990732
 20
-292.1283377539
 10
753.0484003346
 20
-289.4844077347
 10
750.9088524484
 20
-287.1204023743
 10
748.5659038714
 20
-285.0468747527
 10
746.0300201927
 20
-283.2730898107
 10
745.3639603748
 20
-282.8755622566
  0
LWPOLYLINE
  5
C7
330
1F
100
AcDbEntity
  8
0
  6
Continuous
 62
     7
370
    25
100
AcDbPolyline
 90
       13
 70
   128
 43
0.0
 10
665.3704641597
 20
-421.4433761489
 10
667.4218987907
 20
-422.5119703339
 10
670.3088630833
 20
-423.6638801455
 10
673.3524108206
 20
-424.4964360912
 10
676.5389417416
 20
-425.0059182314
 10
679.8542260163
 20
-425.190046884
 10
683.2834595644
 20
-425.0480054437
 10
686.8113246405
 20
-424.5804236573
 10
690.4220635917
 20
-423.789395882
 10
694.0995512971
 20
-422.6784514339
 10
697.8273636567
 20
-421.2525454691
 10
701.5888503605
 20
-419.5180595605
 10
705.3672122673
 20
-417.4827326935
  0
LWPOLYLINE
  5
C8
330
1F
100
AcDbEntity
  8
0
  6
Continuous
 62
     7
370
    25
100
AcDbPolyline
 90
       90
 70
   128
 43
0.0
 10
410.503687547
 20
-239.5045079482
 10
414.0201272052
 20
-237.3311115768
 10
417.5190482624
 20
-234.8817545062
 10
420.9830187161
 20
-232.1686414807
 10
424.394781737
 20
-229.2052753712
 10
427.7373402911
 20
-226.0064326582
 10
430.9940417635
 20
-222.5880415755
 10
434.1486622517
 20
-218.9671395323
 10
437.1854822984
 20
-215.161759431
 10
440.0893764532
 20
-211.1908627552
 10
442.8458751762
 20
-207.0742338704
 10
445.4412491315
 20
-202.83237661
 10
447.862564505
 20
-198.4864275867
 10
450.0977593955
 20
-194.0580360473
 10
452.1356991325
 20
-189.5692680591
 10
453.9662289595
 20
-185.0424817993
 10
455.5802319866
 20
-180.5002302208
 10
456.969666068
 20
-175.9651424237
 10
458.127608584
 20
-171.4598156737
 10
459.0482906846
 20
-167.0066906893
 10
459.7271289002
 20
-162.6279535455
 10
460.1607356776
 20
-158.3454219849
 10
460.3469509911
 20
-154.1804307812
 10
460.2848528782
 20
-150.1537262264
 10
459.9747469035
 20
-146.2853714514
 10
459.4181766955
 20
-142.5946399626
 10
458.6179239461
 20
-139.0999116487
 10
457.5779609958
 20
-135.8186083269
 10
456.3034771754
 20
-132.7670705501
 10
454.8008261221
 20
-129.9604990469
 10
453.0774836333
 20
-127.4128809521
 10
451.142045032
 20
-125.1369031144
 10
449.0041435071
 20
-123.143911023
 10
446.674436943
 20
-121.4438281977
 10
444.1645315281
 20
-120.0451242424
 10
441.4869264371
 20
-118.9547737747
 10
438.654966416
 20
-118.178201668
 10
435.6827574881
 20
-117.719280002
 10
432.5851063682
 20
-117.5802930758
 10
429.3774480224
 20
-117.7619366403
 10
426.0757613746
 20
-118.263305723
 10
422.6964955496
 20
-119.081900705
 10
419.2564855792
 20
-120.2136425221
 10
415.7728700843
 20
-121.6528897675
 10
412.2630033588
 20
-123.392483361
 10
408.7443717353
 20
-125.4237461606
 10
405.2345050098
 20
-127.7365584304
 10
401.7508895148
 20
-130.3194080228
 10
398.3108795444
 20
-133.1594171764
 10
394.9316137195
 20
-136.2424394677
 10
391.6299270717
 20
-139.5531166468
 10
388.4222687259
 20
-143.0749565776
 10
385.324617606
 20
-146.7904153595
 10
382.3524086781
 20
-150.6809764091
 10
379.520448657
 20
-154.7272599584
 10
376.842843566
 20
-158.9091074598
 10
374.3329381511
 20
-163.2056865241
 10
372.003231587
 20
-167.5955912938
 10
369.8653300621
 20
-172.0569519452
 10
367.9298914607
 20
-176.5675396271
 10
366.206548972
 20
-181.1048866067
 10
364.7038979187
 20
-185.6463820872
 10
363.4294140982
 20
-190.1694075616
 10
362.3894511479
 20
-194.6514265479
 10
361.5891983986
 20
-199.0701070193
 10
361.0326281906
 20
-203.4034407921
 10
360.7225222159
 20
-207.6298363043
 10
360.660424103
 20
-211.7282378142
 10
360.8466394164
 20
-215.6782293933
 10
361.2802461939
 20
-219.460129225
 10
361.9590844094
 20
-223.0550964481
 10
362.8797665101
 20
-226.4452245056
 10
364.0377090261
 20
-229.613619284
 10
365.4271431075
 20
-232.5445006372
 10
367.0411461345
 20
-235.2232639862
 10
368.8716759616
 20
-237.6365654945
 10
370.9096156985
 20
-239.7723783464
 10
373.144810589
 20
-241.620068797
 10
375.5661259626
 20
-243.1704265959
 10
378.1614999179
 20
-244.4157288709
 10
380.9179986409
 20
-245.3497720733
 10
383.8218927957
 20
-245.9679039237
 10
386.8587128424
 20
-246.2670462314
 10
390.0133333306
 20
-246.2457009863
 10
393.270034803
 20
-245.9039845851
 10
396.6125933571
 20
-245.2435913378
 10
400.0243563779
 20
-244.2678197103
 10
403.4883268317
 20
-242.9815175798
 10
406.9872478889
 20
-241.3911063867
 10
410.503687547
 20
-239.5045079482
  0
LWPOLYLINE
  5
C9
330
1F
100
AcDbEntity
  8
0
  6
Continuous
 62
     7
370
    25
100
AcDbPolyline
 90
       56
 70
   128
 43
0.0
 10
577.5223074004
 20
-421.2508162169
 10
579.6273689571
 20
-419.8881830661
 10
581.4496426116
 20
-418.3959065514
 10
582.9653733466
 20
-416.7934407142
 10
584.154800217
 20
-415.1016762571
 10
585.0024181216
 20
-413.3426677721
 10
585.497176025
 20
-411.5393474728
 10
585.6326267765
 20
-409.7152227694
 10
585.4070002084
 20
-407.8940755547
 10
584.8232400147
 20
-406.0996459029
 10
583.8889569944
 20
-404.3553283138
 10
582.6163309279
 20
-402.6838611144
 10
581.0219515394
 20
-401.1070354393
 10
579.1266031521
 20
-399.6454082019
 10
576.9549972781
 20
-398.318032151
 10
574.535441906
 20
-397.1422132506
 10
571.8994788891
 20
-396.1332800599
 10
569.0814750725
 20
-395.3043841916
 10
566.1181657151
 20
-394.6663325383
 10
563.0481813671
 20
-394.2274434022
 10
559.9115457293
 20
-393.9934375761
 10
556.7491478305
 20
-393.9673663017
 10
553.6022151908
 20
-394.1495686903
 10
550.5117738162
 20
-394.5376702022
 10
547.5181095082
 20
-395.1266107794
 10
544.6602532121
 20
-395.9087138462
 10
541.9754587908
 20
-396.8737824922
 10
539.4987261561
 20
-398.0092348602
 10
537.2623453915
 20
-399.3002699951
 10
535.2954710858
 20
-400.7300573112
 10
533.6237420228
 20
-402.2799561401
 10
532.2689529801
 20
-403.9297614628
 10
531.2487674385
 20
-405.6579670819
 10
530.5764830579
 20
-407.4420409124
 10
530.2608650657
 20
-409.258726456
 10
530.306026731
 20
-411.0843399037
 10
530.711380632
 20
-412.8950811147
 10
531.4716412905
 20
-414.6673453551
 10
532.5768989288
 20
-416.3780274343
 10
534.0127442637
 20
-418.0048264102
 10
535.7604571798
 20
-419.5265354693
 10
537.7972559472
 20
-420.9233150544
 10
540.0965878456
 20
-422.1769564409
 10
542.6284748176
 20
-423.2711177751
 10
545.3599129587
 20
-424.1915334044
 10
548.2552927915
 20
-424.9262047947
 10
551.2768668743
 20
-425.4655549019
 10
554.3852470013
 20
-425.8025524885
 10
557.5399083193
 20
-425.9328039338
 10
560.6997273579
 20
-425.8546098794
 10
563.8235082068
 20
-425.5689922213
 10
566.870530425
 20
-425.0796728204
 10
569.8010699491
 20
-424.3930313037
 10
572.576922966
 20
-423.5180185756
 10
575.1619017962
 20
-422.4660423867
 10
577.5223074004
 20
-421.2508162169
  0
LWPOLYLINE
  5
CA
330
1F
100
AcDbEntity
  8
0
  6
Continuous
 62
     7
370
    25
100
AcDbPolyline
 90
       60
 70
   128
 43
0.0
 10
580.2093138728
 20
-422.8019920357
 10
582.4506954597
 20
-421.3623798527
 10
584.4143079122
 20
-419.7933870029
 10
586.0779049382
 20
-418.1127921204
 10
587.4226370185
 20
-416.3396367623
 10
588.4332677378
 20
-414.4940108038
 10
589.0983450073
 20
-412.5968273777
 10
589.4103344193
 20
-410.6695801354
 10
589.3657022238
 20
-408.7341083029
 10
588.9649502318
 20
-406.8123393054
 10
588.2126237175
 20
-404.9260485001
 10
587.1172435883
 20
-403.0966086448
 10
585.6912220911
 20
-401.3447465889
 10
583.950717274
 20
-399.690313271
 10
581.9154490874
 20
-398.1520528608
 10
579.6084773731
 20
-396.747395519
 10
577.0559419849
 20
-395.49225567
 10
574.2867639752
 20
-394.4008549378
 10
571.3323189562
 20
-393.4855594333
 10
568.2260810744
 20
-392.7567396144
 10
565.003248546
 20
-392.2226529559
 10
561.7003330542
 20
-391.8893513787
 10
558.3547610004
 20
-391.7606122483
 10
555.0044368895
 20
-391.8378931352
 10
551.6873231781
 20
-392.1203173682
 10
548.4410023428
 20
-392.6046865801
 10
545.3022580455
 20
-393.2855126416
 10
542.3066523484
 20
-394.15508077
 10
539.4881282816
 20
-395.203539059
 10
536.8786174336
 20
-396.419006399
 10
534.5076904285
 20
-397.7877134253
 10
532.4022111077
 20
-399.2941519724
 10
530.5860312947
 20
-400.9212512823
 10
529.0797319049
 20
-402.6505776416
 10
527.9003787899
 20
-404.4625361557
 10
527.0613357933
 20
-406.3365972835
 10
526.5721096638
 20
-408.2515262686
 10
526.4382407362
 20
-410.1856272094
 10
526.6612476142
 20
-412.1169848459
 10
527.2386054382
 20
-414.0237173734
 10
528.1637709098
 20
-415.8842189901
 10
529.4262606592
 20
-417.6774119501
 10
531.0117707702
 20
-419.3829767556
 10
532.9023371366
 20
-420.9815891932
 10
535.0765387049
 20
-422.4551365075
 10
537.5097402306
 20
-423.7869229303
 10
540.174374135
 20
-424.9618582452
 10
543.0402472227
 20
-425.9666302889
 10
546.0748901212
 20
-426.7898549765
 10
549.2439162705
 20
-427.4222044651
 10
552.5114218241
 20
-427.8565133173
 10
555.8403840683
 20
-428.0878625178
 10
559.1930828908
 20
-428.1136281358
 10
562.5315347613
 20
-427.933520482
 10
565.8179089322
 20
-427.5495795468
 10
569.0149732725
 20
-426.966154851
 10
572.0865012489
 20
-426.1898575451
 10
574.9976924061
 20
-425.229483424
 10
577.7155622254
 20
-424.0959140839
 10
580.2093138728
 20
-422.8019920357
  0
ENDSEC
  0
SECTION
  2
OBJECTS
  0
DICTIONARY
  5
C
330
0
100
AcDbDictionary
281
     1
  3
ACAD_GROUP
350
D
  3
ACAD_LAYOUT
350
1A
  3
ACAD_MLINESTYLE
350
17
  3
ACAD_PLOTSETTINGS
350
19
  3
ACAD_PLOTSTYLENAME
350
E
  3
ACAD_SCALELIST
350
47
  0
DICTIONARY
  5
D
102
{ACAD_REACTORS
330
C
102
}
330
C
100
AcDbDictionary
281
     1
  0
DICTIONARY
  5
1A
102
{ACAD_REACTORS
330
C
102
}
330
C
100
AcDbDictionary
281
     1
  3
Layout1
350
1E
  3
Layout2
350
26
  3
Model
350
22
  0
DICTIONARY
  5
17
102
{ACAD_REACTORS
330
C
102
}
330
C
100
AcDbDictionary
281
     1
  3
Standard
350
18
  0
DICTIONARY
  5
19
102
{ACAD_REACTORS
330
C
102
}
330
C
100
AcDbDictionary
281
     1
  0
ACDBDICTIONARYWDFLT
  5
E
102
{ACAD_REACTORS
330
C
102
}
330
C
100
AcDbDictionary
281
     1
  3
Normal
350
F
100
AcDbDictionaryWithDefault
340
F
  0
DICTIONARY
  5
47
102
{ACAD_REACTORS
330
C
102
}
330
C
100
AcDbDictionary
281
     1
  3
A0
350
48
  3
A1
350
49
  3
A2
350
4A
  3
A3
350
4B
  3
A4
350
4C
  3
A5
350
4D
  3
A6
350
4E
  3
A7
350
4F
  3
A8
350
50
  3
A9
350
51
  3
B0
350
52
  3
B1
350
53
  3
B2
350
54
  3
B3
350
55
  3
B4
350
56
  3
B5
350
57
  3
B6
350
58
  3
B7
350
59
  3
B8
350
5A
  3
B9
350
5B
  3
C0
350
5C
  3
C1
350
5D
  3
C2
350
5E
  3
C3
350
5F
  3
C4
350
60
  3
C5
350
61
  3
C6
350
62
  3
C7
350
63
  3
C8
350
64
  3
C9
350
65
  3
D0
350
66
  3
D1
350
67
  3
D2
350
68
  0
LAYOUT
  5
1E
102
{ACAD_REACTORS
330
1A
102
}
330
1A
100
AcDbPlotSettings
  1

  2
none_device
  4

  6

 40
0.0
 41
0.0
 42
0.0
 43
0.0
 44
0.0
 45
0.0
 46
0.0
 47
0.0
 48
0.0
 49
0.0
140
0.0
141
0.0
142
1.0
143
1.0
 70
   688
 72
     1
 73
     0
 74
     5
  7

 75
    16
147
1.0
148
0.0
149
0.0
100
AcDbLayout
  1
Layout1
 70
     1
 71
     1
 10
0.0
 20
0.0
 11
420.0
 21
297.0
 12
0.0
 22
0.0
 32
0.0
 14
1.0000000000E+20
 24
1.0000000000E+20
 34
1.0000000000E+20
 15
-1.0000000000E+20
 25
-1.0000000000E+20
 35
-1.0000000000E+20
146
0.0
 13
0.0
 23
0.0
 33
0.0
 16
1.0
 26
0.0
 36
0.0
 17
0.0
 27
1.0
 37
0.0
 76
     0
330
1B
  0
LAYOUT
  5
26
102
{ACAD_REACTORS
330
1A
102
}
330
1A
100
AcDbPlotSettings
  1

  2
none_device
  4

  6

 40
0.0
 41
0.0
 42
0.0
 43
0.0
 44
0.0
 45
0.0
 46
0.0
 47
0.0
 48
0.0
 49
0.0
140
0.0
141
0.0
142
1.0
143
1.0
 70
   688
 72
     1
 73
     0
 74
     5
  7

 75
    16
147
1.0
148
0.0
149
0.0
100
AcDbLayout
  1
Layout2
 70
     1
 71
     2
 10
0.0
 20
0.0
 11
0.0
 21
0.0
 12
0.0
 22
0.0
 32
0.0
 14
0.0
 24
0.0
 34
0.0
 15
0.0
 25
0.0
 35
0.0
146
0.0
 13
0.0
 23
0.0
 33
0.0
 16
1.0
 26
0.0
 36
0.0
 17
0.0
 27
1.0
 37
0.0
 76
     0
330
23
  0
LAYOUT
  5
22
102
{ACAD_REACTORS
330
1A
102
}
330
1A
100
AcDbPlotSettings
  1

  2
none_device
  4
Letter_(8.50_x_11.00_Inches)
  6

 40
6.35
 41
6.35
 42
6.35000508
 43
6.35000508
 44
215.9
 45
279.4
 46
0.0
 47
0.0
 48
0.0
 49
0.0
140
0.0
141
0.0
142
1.0
143
1.0
 70
  1712
 72
     1
 73
     0
 74
     0
  7

 75
     0
147
1.0
148
0.0
149
0.0
100
AcDbLayout
  1
Model
 70
     1
 71
     0
 10
0.0
 20
0.0
 11
279.4
 21
215.9
 12
0.0
 22
0.0
 32
0.0
 14
0.0
 24
0.0
 34
0.0
 15
279.4
 25
215.9
 35
0.0
146
0.0
 13
0.0
 23
0.0
 33
0.0
 16
1.0
 26
0.0
 36
0.0
 17
0.0
 27
1.0
 37
0.0
 76
     0
330
1F
331
29
  0
MLINESTYLE
  5
18
102
{ACAD_REACTORS
330
17
102
}
330
17
100
AcDbMlineStyle
  2
Standard
 70
     0
  3

 62
   256
 51
90.0
 52
90.0
 71
     2
 49
0.5
 62
   256
  6
BYLAYER
 49
-0.5
 62
   256
  6
BYLAYER
  0
ACDBPLACEHOLDER
  5
F
102
{ACAD_REACTORS
330
E
102
}
330
E
  0
SCALE
  5
48
102
{ACAD_REACTORS
330
47
102
}
330
47
100
AcDbScale
 70
     0
300
1:1
140
1.0
141
1.0
290
     1
  0
SCALE
  5
49
102
{ACAD_REACTORS
330
47
102
}
330
47
100
AcDbScale
 70
     0
300
1:2
140
1.0
141
2.0
290
     0
  0
SCALE
  5
4A
102
{ACAD_REACTORS
330
47
102
}
330
47
100
AcDbScale
 70
     0
300
1:4
140
1.0
141
4.0
290
     0
  0
SCALE
  5
4B
102
{ACAD_REACTORS
330
47
102
}
330
47
100
AcDbScale
 70
     0
300
1:5
140
1.0
141
5.0
290
     0
  0
SCALE
  5
4C
102
{ACAD_REACTORS
330
47
102
}
330
47
100
AcDbScale
 70
     0
300
1:8
140
1.0
141
8.0
290
     0
  0
SCALE
  5
4D
102
{ACAD_REACTORS
330
47
102
}
330
47
100
AcDbScale
 70
     0
300
1:10
140
1.0
141
10.0
290
     0
  0
SCALE
  5
4E
102
{ACAD_REACTORS
330
47
102
}
330
47
100
AcDbScale
 70
     0
300
1:16
140
1.0
141
16.0
290
     0
  0
SCALE
  5
4F
102
{ACAD_REACTORS
330
47
102
}
330
47
100
AcDbScale
 70
     0
300
1:20
140
1.0
141
20.0
290
     0
  0
SCALE
  5
50
102
{ACAD_REACTORS
330
47
102
}
330
47
100
AcDbScale
 70
     0
300
1:30
140
1.0
141
30.0
290
     0
  0
SCALE
  5
51
102
{ACAD_REACTORS
330
47
102
}
330
47
100
AcDbScale
 70
     0
300
1:40
140
1.0
141
40.0
290
     0
  0
SCALE
  5
52
102
{ACAD_REACTORS
330
47
102
}
330
47
100
AcDbScale
 70
     0
300
1:50
140
1.0
141
50.0
290
     0
  0
SCALE
  5
53
102
{ACAD_REACTORS
330
47
102
}
330
47
100
AcDbScale
 70
     0
300
1:100
140
1.0
141
100.0
290
     0
  0
SCALE
  5
54
102
{ACAD_REACTORS
330
47
102
}
330
47
100
AcDbScale
 70
     0
300
2:1
140
2.0
141
1.0
290
     0
  0
SCALE
  5
55
102
{ACAD_REACTORS
330
47
102
}
330
47
100
AcDbScale
 70
     0
300
4:1
140
4.0
141
1.0
290
     0
  0
SCALE
  5
56
102
{ACAD_REACTORS
330
47
102
}
330
47
100
AcDbScale
 70
     0
300
8:1
140
8.0
141
1.0
290
     0
  0
SCALE
  5
57
102
{ACAD_REACTORS
330
47
102
}
330
47
100
AcDbScale
 70
     0
300
10:1
140
10.0
141
1.0
290
     0
  0
SCALE
  5
58
102
{ACAD_REACTORS
330
47
102
}
330
47
100
AcDbScale
 70
     0
300
100:1
140
100.0
141
1.0
290
     0
  0
SCALE
  5
59
102
{ACAD_REACTORS
330
47
102
}
330
47
100
AcDbScale
 70
     0
300
1/128" = 1'-0"
140
0.0078125
141
12.0
290
     0
  0
SCALE
  5
5A
102
{ACAD_REACTORS
330
47
102
}
330
47
100
AcDbScale
 70
     0
300
1/64" = 1'-0"
140
0.015625
141
12.0
290
     0
  0
SCALE
  5
5B
102
{ACAD_REACTORS
330
47
102
}
330
47
100
AcDbScale
 70
     0
300
1/32" = 1'-0"
140
0.03125
141
12.0
290
     0
  0
SCALE
  5
5C
102
{ACAD_REACTORS
330
47
102
}
330
47
100
AcDbScale
 70
     0
300
1/16" = 1'-0"
140
0.0625
141
12.0
290
     0
  0
SCALE
  5
5D
102
{ACAD_REACTORS
330
47
102
}
330
47
100
AcDbScale
 70
     0
300
3/32" = 1'-0"
140
0.09375
141
12.0
290
     0
  0
SCALE
  5
5E
102
{ACAD_REACTORS
330
47
102
}
330
47
100
AcDbScale
 70
     0
300
1/8" = 1'-0"
140
0.125
141
12.0
290
     0
  0
SCALE
  5
5F
102
{ACAD_REACTORS
330
47
102
}
330
47
100
AcDbScale
 70
     0
300
3/16" = 1'-0"
140
0.1875
141
12.0
290
     0
  0
SCALE
  5
60
102
{ACAD_REACTORS
330
47
102
}
330
47
100
AcDbScale
 70
     0
300
1/4" = 1'-0"
140
0.25
141
12.0
290
     0
  0
SCALE
  5
61
102
{ACAD_REACTORS
330
47
102
}
330
47
100
AcDbScale
 70
     0
300
3/8" = 1'-0"
140
0.375
141
12.0
290
     0
  0
SCALE
  5
62
102
{ACAD_REACTORS
330
47
102
}
330
47
100
AcDbScale
 70
     0
300
1/2" = 1'-0"
140
0.5
141
12.0
290
     0
  0
SCALE
  5
63
102
{ACAD_REACTORS
330
47
102
}
330
47
100
AcDbScale
 70
     0
300
3/4" = 1'-0"
140
0.75
141
12.0
290
     0
  0
SCALE
  5
64
102
{ACAD_REACTORS
330
47
102
}
330
47
100
AcDbScale
 70
     0
300
1" = 1'-0"
140
1.0
141
12.0
290
     0
  0
SCALE
  5
65
102
{ACAD_REACTORS
330
47
102
}
330
47
100
AcDbScale
 70
     0
300
1-1/2" = 1'-0"
140
1.5
141
12.0
290
     0
  0
SCALE
  5
66
102
{ACAD_REACTORS
330
47
102
}
330
47
100
AcDbScale
 70
     0
300
3" = 1'-0"
140
3.0
141
12.0
290
     0
  0
SCALE
  5
67
102
{ACAD_REACTORS
330
47
102
}
330
47
100
AcDbScale
 70
     0
300
6" = 1'-0"
140
6.0
141
12.0
290
     0
  0
SCALE
  5
68
102
{ACAD_REACTORS
330
47
102
}
330
47
100
AcDbScale
 70
     0
300
1'-0" = 1'-0"
140
12.0
141
12.0
290
     0
  0
ENDSEC
  0
EOF
